Letra Aqui de Henry William

Etiquetas:
Letra de canción
Español
Enviar a un amigo |


Otras canciones de Henry William

Song Scroller

Visitar letra | Letras de canciones
 
Color de fondo


Color de la letra

Copia este código y pégalo en tu blog o web para mostrar el song-scroller de Album Cancion y Letra

Califica la calidad de esta letra
Espere un momento...
Puntaje: 4,00/5. Total votos: 0

INTRO:
D G D G
e|-2~~~~~~~~~~~~~~-------------2~~~~~~~~~~~~~~-----------------------------|
B|-3~~~~~~~~~~~~~~/8~~~~~~~~---3~~~~~~~~~~~~~~/8~~~~~~~~~~~~~~-------------|
G|-2~~~~~~~~~~~~~~/7~~~~~~~~---2~~~~~~~~~~~~~~/7~~~~~~~~~~~~~~-------------|
D|-0---------------------------0-------------------------------------------|
A|-------------------------------------------------------------------------|
E|-------------------------------------------------------------------------|

VERSO 1:
D G (FIG 1)
El hombre esta acercándose hacia el encuentro con la frontera
D G (FIG 1)
Un cambio una decisión la puerta abierta de una nueva era

FIG 1:
e|-------------------------------------------------|
B|-------------------------------------------------|
G|-x-5^7-7--x-5^7-7--x-5^7--x-5^7-7--x-5^7-7-6-5/--|
D|-------------------------------------------------|
A|-------------------------------------------------|
E|-------------------------------------------------|

PRE:
Em A
Un mundo que gira al revés pretende que navegue en él ahogando mis ideas

VERSO 2:
D G (FIG 1)
El ruido ambiente y soledad de la ciudad nos aislan de todos
D G (FIG 1)
Por eso comencé a escarbar para encontrar los mil y un tesoros

PRE:
Em A
El mundo que gira al reves pretende sumergirme en él ahogando mis ideas


CORO:
D Dsus4
Aquí que tengo el presentimiento
D/G Em
que aquí nada voy arrastrar desde aquí
A
solo voy a vivir mi hoy ahora
D G D G
sharananana sharananana


VERSO 2: (igual a verso 1)
lamento hay en mi corazon no es imaginación es verdadero
mientras el tiempo anuncia que por un segundo casi fui un señuelo

PRE: (igual)
Y el mundo que gira al reves pretende que me incienda en el quemando mis ideas
Cuando hasta un ciego puede ver que nos callamos sin saber perdiendonos la vuelta

CORO: 2 veces

SOLO:
e|---------------------------------------------------------------------|
B|---------------------------------------------------------------------|
G|---------------------------------------------------------------------|
D|-----x-x-x-x-----x-x-x-x-----x-x-x-x-----x-x-x-x-----x-x-x-x---------|
A|-3^5-x-x-x-x-3^5-x-x-x-x-8^5-x-x-x-x-3^5-x-x-x-x-3^5-x-x-x-x-8^10~~--|
E|---------------------------------------------------------------------|

e|---------------------------------------------------------------------|
B|---------------------------------------------------------------------|
G|---------------------------------------------------------------------|
D|-----x-x-x-x-----x-x-x-x-----x-x-x-x-----x-x-x-x-----x-x-x-x---------|
A|-3^5-x-x-x-x-3^5-x-x-x-x-8^5-x-x-x-x-3^5-x-x-x-x-3^5-x-x-x-x-8^10~~--|
E|---------------------------------------------------------------------|

D G Em A
e|-2-------------------------------------------------------------------|
B|-3--3-5-7-10-7-5-7^5^3---3-------------5-7-8-12-8-7-8^7^5---5--------|
G|-2---------------------2----------------------------------7----------|
D|-0-------------------------------------------------------------------|
A|---------------------------------------------------------------------|
E|---------------------------------------------------------------------|

PRE: (igual)
Cuando hasta un ciego puede ver que nos callamos sin saber perdiéndonos la vuelta

CORO: 2 veces (en la segunda vez empieza un requinto pero ya me da flojera)

D G D G D G D G
Sharanana Sharananana Sharanana Sharananana
(Aquiiiiiiiiiií Ooooooooo)
EADGBe
D/G: 30023x
Dsus4: 000233
Tomado de AlbumCancionYLetra.com
^: ligar
/: deslizar