Letra Ay Que Dios Boludo de Divididos

Etiquetas:
Letra de canción
Español
Enviar a un amigo |


Otras canciones de Divididos

Song Scroller

Visitar letra | Letras de canciones
 
Color de fondo


Color de la letra

Copia este código y pégalo en tu blog o web para mostrar el song-scroller de Album Cancion y Letra

Califica la calidad de esta letra
Espere un momento...
Puntaje: 4,00/5. Total votos: 0

INTRO: (C G D A) x2

C G D A
El amor te lleno la cama de arandelas y tachuelas
C G D A
me opere de este bandoneon con anestesia local
C G D A
entonces engorde de ideas y ahora hago ayuno de bocho
C G D A
encima me enamore y engordo mi corazon tambien


Am C Am C


Am G F# F
Se me divorciaron las mesitas de luz
Am G F# F
por ser rebelde no hay negocio
Am G F# F
ay, que dios boludo se pincho en la mitad
Am G F# F
se hizo el canchero por milagros


C G Am
Vestite pebeta que te llevo a pasear
C G Am
esta noche paqueta nos vuelve a besar
C G Am F
Vestite pebeta que te llevo a pasear, esta noche

(C G D A) x2

Tus penas son una cajita musical que se oxido
carnaval de los picaflores, maquillaje y bombachita.
Aquellarre de presidentes un ratito cada uno
la azafata vuelve a ser, la que trae el perfume y el pedal

SOLO SOBRE(C G F# F)

e|---7---7--5---7----7--5---7--|--7--5--7--5------|--5--7--8--5---7--|
B|-----------------------------|---------------5--|------------------|
G|-----------------------------|------------------|------------------|
D|-----------------------------|------------------|------------------|
A|-----------------------------|------------------|------------------|
E|-----------------------------|------------------|------------------|


e|-----5------|--7--8--5--7---|-----5--5-----|---5--7--8^10--8--7--8--|
B|--5------7--|---------------|--5-----------|------------------------|
G|------------|---------------|-----------7--|------------------------|
D|------------|---------------|--------------|------------------------|
A|------------|---------------|--------------|------------------------|
E|------------|---------------|--------------|------------------------|


e|--7--5^12-------|
B|----------------|
G|----------------|
D|----------------|
A|----------------|
E|----------------|


Vestite pebeta que te llevo a pasear
esta noche paqueta nos vuelve a besar.
Vestite pebeta que te llevo a pasear, esta noche...
Tomado de AlbumCancionYLetra.com
FINAL (C G D A) x6