Letra De Mi Te Vas Aenamorar de Garras De Amor

Etiquetas:
Letra de canción
Español
Enviar a un amigo |


Otras canciones de Garras De Amor

Song Scroller

Visitar letra | Letras de canciones
 
Color de fondo


Color de la letra

Copia este código y pégalo en tu blog o web para mostrar el song-scroller de Album Cancion y Letra

Califica la calidad de esta letra
Espere un momento...
Puntaje: 4,00/5. Total votos: 0

=INTRO=

D G Bm
E-----------------------------------------------
B----------------------------------3-3-3-3-5-3--
G-----------4-4-4-4-5-4---0-0-2-4-0-------------
D--0-O-2-4-0------------------------------------
A-----------------------------------------------
E-----------------------------------------------
'¡Nuevamente...!' '¡Garras...!'

C D
E------------------------------------
B-----7-10-8-7-10-8-7-8--8-8-7---7---
G--7-9------------------------9-9-7--
D------------------------------------
A------------------------------------
'¡...de Amor!'

G Bm
E----------------------------------2-2-2-2-3-2--
B-----------3-3-3-3-5-3---0-0-1-3-0-------------
G--0-0-2-4-0------------------------------------
D-----------------------------------------------
A-----------------------------------------------
E-----------------------------------------------

C D
E--10-10-10--10-10-10-12---8-10-10-12-8--7-5-7-8-5--
B-----------------------13--------------------------
G---------------------------------------------------
D---------------------------------------------------
A---------------------------------------------------
E---------------------------------------------------

=Estrofa 1.1=
D G
HACEMOS EL AMOR
Em
Y NO PODEMOS NEGAR
(E) Am
QUE ESTAMOS ENAMORADOS
C
PORQUE ESTAMOS LIGADOS
D D7
CORAZÓN Y CUERPO...

=Estrofa 1.2=
G
CUANDO RECORRO TU PIEL,
Bm
PASANDO POR TUS LINDOS PECHOS,
(E) Am
TÚ ME HACES CREER,
C
TÚ ME HACES SENTIR
D
QUE ESTO ES VERDADERO...
C Am D D7
NO ME MIRES ASÍ... CON ESA MIRADA PROHIBIDA...

=CORO=
D G
DE MÍ TE VAS A ENAMORAR
Bm
PORQUE NADIE TE BESARÁ,
C
NADIE TE TOCARÁ,
Am
NADIE TE HARÁ EL AMOR
D D7
COMO LO HAGO YO...

D G
DE MÍ TE VAS A ENAMORAR
Bm
PORQUE NADIE TE BESARÁ,
C
NADIE TE TOCARÁ,
Am
NADIE TE HARÁ EL AMOR
D
COMO LO HAGO YO...

=Se repite el punteo de la INTRO=

=Estrofa 2.1=
D G
HACEMOS EL AMOR
Em
Y NO PODEMOS NEGAR
(E) Am
QUE ESTAMOS ENAMORADOS
C
PORQUE ESTAMOS LIGADOS
D D7
CORAZÓN Y CUERPO...

=Estrofa 2.2=
G
CUANDO RECORRO TU PIEL,
Bm
PASANDO POR TUS LINDOS PECHOS,
(E) Am
TÚ ME HACES SENTIR,
C
TÚ ME HACES CREER
D
QUE ESTO ES VERDADERO...
C Am D D7
NO ME MIRES ASÍ... CON ESA MIRADA PROHIBIDA...

=CORO=
D G
DE MÍ TE VAS A ENAMORAR
Bm
PORQUE NADIE TE BESARÁ,
C
NADIE TE TOCARÁ,
Am
NADIE TE HARÁ EL AMOR
D D7
COMO LO HAGO YO...

D G
DE MÍ TE VAS A ENAMORAR
Bm
PORQUE NADIE TE BESARÁ,
C
NADIE TE TOCARÁ,
Am
NADIE TE HARÁ EL AMOR
D
COMO LO HAGO YO...

=Parte instrumental=

G Em Am C D
E---7-7-7-5-3-5-7---7-7-7-5-3-7-8---8-8-8-7-5-7-8---5-5-5-3-2-5---
B-----------------------------------------------------------------
G-----------------------------------------------------------------
D-----------------------------------------------------------------
A-----------------------------------------------------------------
E-----------------------------------------------------------------

G Em
E---10--10-10-10-8-7-5-7---10--10-10-10-8-7-5-7---
B-------------------------------------------------
G-------------------------------------------------
D-------------------------------------------------
A-------------------------------------------------
E-------------------------------------------------

Am C D Bm-C--D--
E---12--12-12-12-10-8-7-8---5--5-5-5-3-2-0-2---2--3--5--
B----------------------------------------------3--5--7--
G-------------------------------------------------------
D-------------------------------------------------------
A-------------------------------------------------------
E-------------------------------------------------------

=CORO=
D G
DE MÍ TE VAS A ENAMORAR
Bm
PORQUE NADIE TE BESARÁ,
C
NADIE TE TOCARÁ,
Am
NADIE TE HARÁ EL AMOR
D D7
COMO LO HAGO YO...

D G
DE MÍ TE VAS A ENAMORAR
Bm
PORQUE NADIE TE BESARÁ,
C
NADIE TE TOCARÁ,
Am
NADIE TE HARÁ EL AMOR
D
COMO LO HAGO YO...

=FINAL= (Parte instrumental)

G Em Am C D
E-7-7-7-5-5-7--7-7-7-5-7-8--8-8-8-7--7-8--5-5-5-2-5---------------
B--------8--------------8----------10--------------8--------------
G----------------------------------------------- ¡COMO LO HAGO YO!
D-----------------------------------------------------------------
A-----------------------------------------------------------------
E-----------------------------------------------------------------

G Em
E---10--10-10-10-8-7-5-7---10--10-10-10-8-7-5-7---
B-------------------------------------------------
G-------------------------------------------------
D-------------------------------------------------
A-------------------------------------------------
E-------------------------------------------------
Tomado de AlbumCancionYLetra.com
Am C D Bm C D G
E---12--12-12-12-10-8-7-8---5--5-5-5-3-2-0-2---2--3--5----3--
B----------------------------------------------3--5--7----3--
G---------------------------------------------------------0--
D---------------------------------------------------------0--
A---------------------------------------------------------2--
E---------------------------------------------------------3--