Letra Funk Del Balsa Chancho de Chancho En Piedra

Etiquetas:
Letra de canción
Español
Enviar a un amigo |


Otras canciones de Chancho En Piedra

Song Scroller

Visitar letra | Letras de canciones
 
Color de fondo


Color de la letra

Copia este código y pégalo en tu blog o web para mostrar el song-scroller de Album Cancion y Letra

Califica la calidad de esta letra
Espere un momento...
Puntaje: 4,00/5. Total votos: 0

intro riff1
|--8-8-8-8-5-5-5-5-8-8-8-8-5--|
|--8-8-8-8-5-5-5-5-8-8-8-8-5--|
|--8-8-8-8-5-5-5-5-8-8-8-8-5--|
|-----------------------------|
|-----------------------------|
|-----------------------------|
verse riff2
|-8--10--8-10-8h8-9-8-10-8--9-8-10-8h8--|
|-8--10--8-10-8h8-9-8-10-8--9-8-10-8h8--|
|-8--10--8-10-8h8-9-8-10-8--9-8-10-8h8--|
|---------------------------------------|
|---------------------------------------|
|---------------------------------------|
Se que vomité en tu sofá
Se que manosié a tu mamá
Se que atropellé a tu perro
Porqué tu padre me mira feo
bridge riff3
|--7--9--7-9--7-7-7--8--7--9--7-8--7-7-7--8--7--|
|--7--9--7-9--7-7-7--8--7--9--7-8--7-7-7--8--7--|
|--7--9--7-9--7-7-7--8--7--9--7-8--7-7-7--8--7--|
|-----------------------------------------------|
|-----------------------------------------------|
|-----------------------------------------------|
Él dice que soy
coro fiff4
|---5-5--5h7-5h7-5h7--5-5--5h7-5h7--|
|---5-5--5h7-5h7-5h7--5-5--5h7-5h7--|
|---5-5--5h7-5h7-5h7--5-5--5h7-5h7--|
|-----------------------------------|
|-----------------------------------|
|-----------------------------------|
Balsa Balsa
verse riff2
Se que nos pillaron dale que suena
Se que la cagué eruptando en la cena
No quise golpear a tu hermano
Ni a tu nana correrle mano
bridge riff3
Todos dicen que soy
coro riff4
Balsa balsa
riff4
No soy Balsa,(balsa)
hazme una gauchá,(balsa)
traeme los churrines,(balsa)
que están debajo de la cama de tu hermana.(balsa)
riff1
oh, Felipe
½ riff1
K.V.zon
riff2
¿que suenan?,los chanchos
¿que tocan?,el funk del balsa
del balsa el funk DEL BALSA.....
outro riff1