Letra Homenaje a lucha reyes de Eva Ayllón

Etiquetas:
Letra de canción
Español
Enviar a un amigo |


Otras canciones de Eva Ayllón

Song Scroller

Visitar letra | Letras de canciones
 
Color de fondo


Color de la letra

Copia este código y pégalo en tu blog o web para mostrar el song-scroller de Album Cancion y Letra

Califica la calidad de esta letra
Espere un momento...
Puntaje: 5,00/5. Total votos: 1

Regresa

tria 3 veces
|--5--5-5-5--|-7-5--------8-5------------|
|------------|-----6----------6----------|
|------------|-------7----------7--------|
|------------|---------------------------|
|------------|---------------------------|
|------------|---------------------------|

2 veces
|--7-5------8-5------|------------0-1-0--3-1-0-------|
|------5--------5----|------0-1-3--------------3-----|
|--------5--------5--|--1-2--------------------------|
|--------------------|-------------------------------|
|--------------------|-------------------------------|
|--------------------|-------------------------------|


|--0-1-0-----------------------0-1p0-----------------|
|--------3-1-0-3-1-0-----0-1-3-------3-1-0-----------|
|--------------------1-2-------------------2---------|
|----------------------------------------------------|
|----------------------------------------------------|
|----------------------------------------------------|


|--6-5---5-----------------|
|------8---8--6-8-6-5------|
|---------------------7----|
|--------------------------|
|--------------------------|
|--------------------------|

tria 3 veces
|--5--5-5-5--|-7-5--------8-5------------|
|------------|-----6----------6----------|
|------------|-------7----------7--------|
|------------|---------------------------|
|------------|---------------------------|
|------------|---------------------------|

2 veces tria
|--7-5------8-5-------5-|--6---10-6--------|
|------5--------5---5---|-----------6------|
|--------5--------5-----|-------------7----|
|-----------------------|---------------8--|
|-----------------------|------------------|
|-----------------------|------------------|

|-4-7-5-4---4-5----------5-----------------|
|---------7------------5-------------------|
|--------------------5---------------------|
|----------------6-7-----------------------|
|------------------------------------------|
|------------------------------------------|

la
Te esto buscando
re
por que mis brazos extrañan tus besos de fuego
MI
te estoy amando
la LA7
y en mis palabras tan tristes mi voz es un ruego

re
te necesito
la
porque mi vida sin verte no tiene sentido y van
MI
y van por el mundo mis pasos perdidos

buscando el camino
la
de tu comprension

la
apiadate de mi
DO
si tienes corazon
F
escucha en tus latidos
MI
la voz de mi dolor

re
pero regresa
la
para llenar el vacio que dejaste al irte regresa
MI
regresa aunque sea para despedirte

no dejes que muera
la LA7
sin decirte adios (BIS)


Como una rosa roja

2 veces
|--------5----------|-----------10------------|
|------6----8-6-----|--------11---13-11-------|
|----7----------7---|-----12------------12----|
|--7--------------7-|--12------------------12-|
|-------------------|-------------------------|
|-------------------|-------------------------|

|----------10--8-6-5-5-6-5-3-3-5-3-1------------|
|-------11----10-8-6-6-8-6-5-5-6-5-3------------|
|----12-----------------------------------------|
|--12-------------------------------------2-----|
|-------------------------------------2-4---4---|
|-----------------------------------5---------5-|

2 veces
|--------5----------|-----------10------------|
|------6----8-6-----|--------11---13-11-------|
|----7----------7---|-----12------------12----|
|--7--------------7-|--12------------------12-|
|-------------------|-------------------------|
|-------------------|-------------------------|

|----------10--8-7--8-8--h9-----------------------------|
|-------11----10-9-10-10-10--10-8-6-5-5-6-8-6-5-6-5-3-2-|
|----12----------------------10-9-7-6-6-7-9-7-6-7-5-3-2-|
|--12---------------------------------------------------|
|-------------------------------------------------------|
|-------------------------------------------------------|

re
Mi amor te lo entregue
LA7
como una rosa roja entre mis manos

mi amor te lo entregue
re
como una flor azul echa de llanto
LA7
y entre mis noches fue, dulzura renovada en tus brazos
re RE7
y en mis mañanas fue, un pecado mortal que me hace daño
sol re
cielo e infierno juntos, amarte como te amo
SIb LA7
y mi corazon nace y muere junto a ti
sol re
que no me perteneces, que se que no me amas
LA7 re
y sin embargo quiero, vivir tan solo en ti


Propiedad Privada

|--------------4-5---------------------------|
|--s-5-5-5-5-5-5-5-5-3-3-3h5-1---------------|
|--s-4-4-4-4-4-----5-4-4-4---2---------------|
|--------------------------------------------|
|--------------------------------------------|
|--------------------------------------------|

|------------------------10h12p10--8-7-------|
|--7-5-7-5-7-7-7-8-10-10-12-------10-8-------|
|--7-5-7-5-7-7-7-9-11-11---------------------|
|--------------------------------------------|
|--------------------------------------------|
|--------------------------------------------|

|--10--8-10--8-7-5-4---------4-7-10--8-12-12-10--8-|
|--12-10-12-10-8-6-5-5-5-4-5-----12-10-13-13-12-10-|
|--------------------------------------------------|
|--------------------------------------------------|
|--------------------------------------------------|
|--------------------------------------------------|

|--12-11-12-12p10--8-12-10-7-5-4-7-5-3-------|
|--13-12-13-12----10-12-12-8-7-6-8-7-5-------|
|--------------------------------------------|
|--------------------------------------------|
|--------------------------------------------|
|--------------------------------------------|


|------3h5-5------------------7-------------|
|--5-5-5---5-----3h5------------10-7--------|
|--5-5-------4-4-4----------8--------8-9----|
|------------5-5------7-8-9-----------------|
|-------------------------------------------|
|-------------------------------------------|

|----------3----------------------------------|
|--------5------------------------------------|
|------4--------------------------------------|
|--4-5----------------------------------------|
|---------------------------------------------|
|---------------------------------------------|
Tomado de AlbumCancionYLetra.com
la LA7 re
Para que sepan todos que tu me perteneces
SOL7 DO
con sangre de mis venas te marcare la frente
la MI
para que te respeten aun con la mirada
la
y sepan que tu eresmi propiedad privada
LA7 re
que no se atreva nadie la mirarte con ansias
SOL7 DO
y que conserven todas respetable distancia
la DO
porque mi pobre alma se retuerce de celos
la
y no quiero que nadie respire de tu aliento
LA7 re
porque siendo tu dueño no me importa mas nada
la MI la
que verte solo mia mi propiedad privada (bis)