Letra Por Ti de 6 Voltios

Etiquetas:
Letra de canción
Español
Enviar a un amigo |


Otras canciones de 6 Voltios

Song Scroller

Visitar letra | Letras de canciones
 
Color de fondo


Color de la letra

Copia este código y pégalo en tu blog o web para mostrar el song-scroller de Album Cancion y Letra

Califica la calidad de esta letra
Espere un momento...
Puntaje: 4,00/5. Total votos: 0

(mmm planchas sera ps XD)

E5 G#5
Quiero estar contigo otra vez
C#5 A5 B5
vaaamonos a un lugar lejos d aqui
G#5 A5 B5
quieroooo verte sonreiiir


(rasgueo)

E5 G#5
y escuchar q todo esta bien
C#5 A5 B5
quiero estar y siempre estaré

G#5 C#5
Daría todo x ti
A5 E5 B5
mi guitarra y todas mis canciones
G#5 A5 B5
quierooo verte sonreiir

(palm mute)

E5 G#5
siento aun lo mismo d ayer
C#5 A5 B5
recuerdo el olor d tu perfume
G#5 A5 B5
quiero tenerte cerca otra vez

E5 G#5
dicen q no q no demuestras q si
C#5 A5 B5
llévame sácame d aquí

(rasgueo)

G#5 C#5
Daría todo x ti
A5 E5 B5
mi guitarra y todas mis canciones
G#5 A5 B5
quieeeroooo verte sonreír

(planchas)
G#5 A5 E5 B5
Rompí el hielo x ti y pude el tiempo d mi vida
G#5 C#5 A5 B5
daría mi vida x ti y no basta nunca bastara........


1|-------------------------------------------------
2|-------------------------------------------------
3|-4-4----4---6-6-4------4-------------------------
4|------6-------------6------6-6-4---4-6-7-6-4---4-
5|---------------------------------7-----------7---
6|-------------------------------------------------

1|-------------------4---5--5--4-------------------
2|--------------5--7---5---------7-5-4-5----5------
3|-4-4----4---6---------------------------4--------
4|-----6-------------------------------------------
5|-------------------------------------------------
6|-------------------------------------------------


(planchas)

E5 G#5
Si te falle perdóname
C#5 A5 B5
No fue nunca mi intención lastimarte
G#5 A5 B5
No puedo verte llorar

(rasgueo)

E5 G#5
siento aun lo mismo q ayer
C#5 A5 B5
recuerdo el olor d tu perfume
G#5 A5 B5
quiero tenerte cerca otra vez

G#5 C#5
Daría todo x ti
A5 E5 B5
mi guitarra y todas mis canciones
G#5 A5 B5
quieeeroooo verte sonreiiir

(planchas)

G#5 A5 E5 B5
Rompí el hielo x ti y pude el tiempo d mi vida
G#5 C#5 A5 B5 B5
daría mi vida x ti y no basta nunca bastaraaaaaaaa..........

1|-------------------------------------------------
2|-------------------------------------------------
3|-4-4----4---6-6-4------4-------------------------
4|------6-------------6------6-6-4---4-6-7-6-4---4-
5|---------------------------------7-----------7---
6|-------------------------------------------------

1|-------------------4---5--5--4-------------------
2|--------------5--7---5---------7-5-4-5----5------
3|-4-4----4---6---------------------------4--------
4|-----6-------------------------------------------
5|-------------------------------------------------
6|-------------------------------------------------




1|----------------------5-----4--------------------
2|---5--------------5------5-----5---7-------------
3|------4-----4---6--------------------------------
4|----------6--------------------------------------
5|-------------------------------------------------
6|-------------------------------------------------

1|-----------------------4--------4--------4-------
2|---5----------------5-----5--7-----7--5-----5-7-5
3|------4------------------------------------------
4|----------6--7--6--------------------------------
5|-------------------------------------------------
6|-------------------------------------------------

1|------5-----4-----------4------------------------
2|---5-----5-----5--7--------5--7--5---------------
3|-------------------------------------------------
4|-------------------------------------------------
5|-------------------------------------------------
6|-------------------------------------------------
Tomado de AlbumCancionYLetra.com
1|-------------------------------------------------
2|-------------------------------------------------
3|-------------------------------------------------
4|-------6--------6------------6-------------------
5|----7-----7--9------9--7--7-----7---9--7---------
6|-------------------------------------------------