Letra Princesa Barbi Superestar de Joaquín Sabina

Etiquetas:
Letra de canción
Español
Enviar a un amigo |


Otras canciones de Joaquín Sabina

Song Scroller

Visitar letra | Letras de canciones
 
Color de fondo


Color de la letra

Copia este código y pégalo en tu blog o web para mostrar el song-scroller de Album Cancion y Letra

Califica la calidad de esta letra
Espere un momento...
Puntaje: 5,00/5. Total votos: 1

Entre la cirrosis y la sobredosis
andas siempre muñeca
con tu sucia camisa
y en lugar de sonrisa
una especie de mueca

¿como no imaginarte?
¿como no recordarte?
hace a penas 2 años

cuando eras la princesa
de la boca de fresa
cuando tenías aún esa
forma de hacerme daño.

Ahora es demasiado
tarde princesa
Búscate otro perro
que te ladre princesa

Maldito sea el gurú
que levantó entre tú y yo
un silencio oscuro

del que ya sólo sales para decirme vale déjame veinte duros


ya no te tengo miedo, reina, pero no puedo seguirte en tu viaje

A ---0--2--

C G Bm
cuantas veces hubiera dado la vida entera
F D
porque tu me pidieras llevarte el equipaje

G C D
B) Ahora es demasiado tarde princesa
G C D
Búscate otro perro que te ladre princesa


-----------------------------------------------------------------------------------------------------
-----------------------------------------------------------------------------------------------------
--7---4---7---5-------5---4---5---4---5---4-------------------------------------4----------------
-------------------------------------------------5---7-------5---7---5---7---5-------5------------
--------------------------------------------------------------------------------------------7---5---
----------------------------------------------------------------------------------------------------
(el resto es igual que la intro)

G D C G
A) Tú que sembraste en todas las islas de la moda las flores de tu gracia
D C G
como no ibas a verte envuelta en una muerte con asalto a farmacia

A -----0---2--
E --3----------

C G Bm Am
¿con que ley condenarte? si somos juez y parte todos de tus andanzas

A ---0--2--

C G Bm F D
sigue con tus movidas reina, pero no pidas que me pase la vida pagándote fianzas.
Tomado de AlbumCancionYLetra.com
G C D
B) Ahora es demasiado tarde princesa
G C D
Búscate otro perro que te ladre princesa