Letra Tablatura de 3 1 guitarra de Ergo

Etiquetas:
Letra de canción
Español
Enviar a un amigo |


Otras canciones de Ergo

Song Scroller

Visitar letra | Letras de canciones
 
Color de fondo


Color de la letra

Copia este código y pégalo en tu blog o web para mostrar el song-scroller de Album Cancion y Letra

Califica la calidad de esta letra
Espere un momento...
Puntaje: 4,00/5. Total votos: 0

HOLA A TODOS ESTE ES MI TERCER TAB DE PANDA, LA VERDAD ESTE
GRUPO ESTE GENIAL
(lo malo es que el chocho,geral,beto,y chela no se animan a tocar)
attm luis

SON DOS GUITARRAS, CADA RIFF DESPUES DEL INTRO SE REPITE DOS VECES.
NO SE OLVIDEN DE Q SE REPITE DOS VECES CADA RIFF.

INTRO--->EL PUNTEO DE ABAJO 4 VECES

|----------14-13------|
|-14----14-------13---|
|----13---------------|
|---------------------|
|---------------------|
|---------------------|

MIENTRAS SE TOCA ESTO 4 VECES LA OTRA VIOLA TOCA:

|----------------------------|
|----------------------------|
|-6--3-----------3-3-3-------|
|-6--3-4-4-4-4-4-3-3-3-6-6-6-|
|-4--1-4-4-4-4-4-1-1-1-6-6-6-|
|------2-2-2-2-2-------4-4-4-|

LUEGO, HAY ESTE PUNTEO, LA OTRA GUITARRA TOCA LO DE ARRIBA PERO
CADA NOTA DURA UN COMPAS ENTERO.

|-------------------------------------|
|-------4-----4H6H7-6-4-------4-------|
|-6-6-6---6-6-----------6-3-6---6-----|
|-------------------------------------|
|-------------------------------------|
|-------------------------------------|

|---------------6-4---------6/9-8-9-11P9P8-------------------|
|---4H6H7-6-4-------7-7-6-4---------------11P998-------------|
|-6-----------6---------------------------------10P8P6-------|
|-----------------------------------------------------10P8P6-|
|------------------------------------------------------------|
|------------------------------------------------------------|

VERSOS --->CADA NOTA UN COMPAS

|------------------|
|------------------|
|-6-6-3-3----------|
|-6-6-3-3-6-6-4-4--|
|-4-4-1-1-6-6-4-4--|
|---------4-4-2-2--|

te intento el destrozarme
mientras yo buscaba cosas sabias
que decir en mi defensa
pero no las aceptas ya ya ya me canse
me canse de ti

INTERLUDE --->CADA NOTA UN COMPAS, LA ULTIMA DOS COMPACES

|-----------------------|
|-----------------------|
|-3-3-------------------|
|-3-3--6-6--4-4-4-4-----|
|-1-1--6-6--4-4-4-4-----|
|------4-4--2-2-2-2-----|

en tus mentiras yo cai
pero amortigue la caida pues del mejor aprendi
(mira mejor ahora estoy)

CORO-->CADA NOTA DOS COMPACES, LAS ULTIMAS 2 UN COMPAS

|-------------------|
|-------------------|
|-6-6-3-3-----3-----|
|-6-6-3-3-4-4-3-6---|
|-4-4-1-1-4-4-1-6---|
|---------2-2---4---|

EN EL CORO LA OTRA GUITARRA TOCA:

|-----------------------------------------|
|-----------------------------------------|
|-10-10-10-11-10-15-13-11-10-10-10-11-10--|
|-----------------------------------------|
|-----------------------------------------|
|-----------------------------------------|

|----------------------------------------------------|
|----------------------------------------------------|
|-15-13-11-11-11-11-11-11-11-10-10-10-10-8-8-8-------|
|----------------------------------------------------|
|----------------------------------------------------|
|----------------------------------------------------|

sabes bien se me dificulta hacerte saber
se me dificulta ver
nada es de tu agrado
sabes que te amo y no lo aguanto no lo aguanto

y fijate que los dos prometimos algo que no se cumplio
me lo hiciste otra vez ya no lo puedo creer
ojala y un dia se te regrese

ENGANCHE

|-----------|
|-----------|
|-----------|
|-4-4-4-4---|
|-4-4-4-4---|
|-2-2-2-2---|

BREAK

SE TOCA CON LAS MISMAS NOTAS Y TIEMPOS QUE EL CORO, PERO SOLO SE
TOCA DOS VECES CADA NOTA.

quisiera poder odiarte
veria las cosas mas facil
quisiera poder quisiera poder

VERSO

nunca reconocerias una cosa buena ni aunque este enfrente y te
corte la garganta
eso seria interesante (ya ya ya termino)
todo termino

INTERLUDE

te perdiste del mejor
y siempre te dije muchas veces que yo soy el mejor
yo soy el mejor

CORO

sabes bien se me dificulta hacerte saber
se me dificulta ver
nada es de tu agrado
sabes que te amo y no lo aguanto no lo aguanto

y fijate que los dos prometimos algo que no se cumplio
me lo hiciste otra vez ya no lo puedo creer
ojala y un dia se te regrese

SOLO--->LA OTRA GUITARA ACOMPAÑA CON LOS RIFF DEL CORO

|-------------------------------------|
|-------4-----4H6H7-6-4-------4-------|
|-6-6-6---6-6-----------6-3-6---6-----|
|-------------------------------------|
|-------------------------------------|
|-------------------------------------|

|---------------6-4---------6/9-8--6-6-4-----------|
|---4H6H7-6-4-------7-7-6-4--------------7P6P4-----|
|-6-----------6------------------------------------|
|--------------------------------------------------|
|--------------------------------------------------|
|--------------------------------------------------|


|-------------------------------------|
|-------4-----4H6H7-6-4-------4-------|
|-6-6-6---6-6-----------6-3-6---6-----|
|-------------------------------------|
|-------------------------------------|
|-------------------------------------|

SE DEJA SONAR LA ULTIMA NOTA

CORO ACUSTICO---->CADA NOTA UN COMPAS MENOS LAS ULTIMAS DOS

|-4-4-1-1-2-2-1-4-|
|-6-6-2-2-2-2-2-4-|
|-6-6-3-3-3-3-3-5-|
|-6-6-3-3-4-4-3-6-|
|-4-4-1-1-4-4-1-6-|
|-4-4-1-1-2-2-1-4-|

TERMINA CON:

|-4-----|
|-6-----|
|-6-----|
|-6-----|
|-4-----|
|-4-----|

---FIN---
Tomado de AlbumCancionYLetra.com
ESPERO QUE LA SAQUEN...SALUDOS A LA BANDA OMAR, ORLO.
Y A TODOS LOS QUE ME CONOCEN.
SUERTE...